Rytmen för låten Valet - Musikteori &tabulatur - Gitarrforum

Hoppa till innehåll


Foto

Rytmen för låten Valet


  • Vänligen logga in för att svara
1 har svarat på denna tråd

#1 draenor

draenor

    Medlem

  • Members
  • 248 Inlägg:
  • Gender:Male
  • Location:Göteborg

Postad 13 juni 2015 - 12:06

Hej, 

 

Har fått för mig att komplettera mitt spel med lite akustiskt. Hittade en kul rytm men känns inte riktigt som jag lyckats pricka detaljerna rätt .

 

Låten är Valet med Wiehe och rytmen 1 minut 4s in

 

 

 

Jag tänker att rytmen är något i stil med följande .. Tar gärna emot tips som pekar på motsatsen  :)

 

 
E|----(1)-------------
B|-----3-----3--------
G|-----2-----------2--
D|--0-----0-----------
A|--------------0-----
E|--------------------

 

 



#2 draenor

draenor

    Medlem

  • Members
  • 248 Inlägg:
  • Gender:Male
  • Location:Göteborg

Postad 14 juni 2015 - 21:53

Nu tror jag äntligen jag börja fatta, såhär måste det ju gå

E|--------------------:|
B|-----3-----3-----3--:|
G|-----2--------2-----:|
D|--0-----------------:|
A|--------0-----------:|
E|--------------------:|
    1  å   2    å






0 användare läser detta ämne

0 medlemmar, 0 gäster, 0 anonyma medlemmar